ISO-10303-21;
HEADER;
FILE_DESCRIPTION(('Creo Elements/Direct Modeling STEP Export'),'2;1');
FILE_NAME(
'C:/Users/TECCAD~1/AppData/Local/Temp/0ln7uvk4qr4okgn5328/0ln7uvk4qr4okg
o5328','2019-05-22T 9:34:36',(''),(''),
'Creo Elements/Direct Modeling STEP processor for AP214 (Solid Model)',
'Creo Elements/Direct Modeling 20.1B  02-Apr-2019 (C) Parametric Technol
ogy GmbH','');
FILE_SCHEMA(('AUTOMOTIVE_DESIGN { 1 0 10303 214 1 1 1 1 }'));
ENDSEC;
DATA;
#10=CARTESIAN_POINT('',(78.128127,47.655314,0.));
#20=DIRECTION('',(1.,2.089522659733E-91,-2.72509429760522E-107));
#30=DIRECTION('',(-2.089522659733E-91,1.,6.68887130434693E-198));
#40=AXIS2_PLACEMENT_3D('',#10,#20,#30);
#50=PLANE('',#40);
#60=CARTESIAN_POINT('',(78.128127,47.655314,0.));
#70=DIRECTION('',(1.,0.,0.));
#80=DIRECTION('',(0.,-1.,0.));
#90=AXIS2_PLACEMENT_3D('',#60,#70,#80);
#100=CIRCLE('',#90,2.15);
#110=CARTESIAN_POINT('',(78.128127,45.505314,0.));
#120=VERTEX_POINT('',#110);
#130=CARTESIAN_POINT('',(78.128127,49.805314,-2.63299061816681E-16));
#140=VERTEX_POINT('',#130);
#150=EDGE_CURVE('',#120,#140,#100,.T.);
#160=ORIENTED_EDGE('',*,*,#150,.T.);
#170=EDGE_CURVE('',#140,#120,#100,.T.);
#180=ORIENTED_EDGE('',*,*,#170,.T.);
#190=EDGE_LOOP('',(#180,#160));
#200=FACE_OUTER_BOUND('',#190,.T.);
#210=ADVANCED_FACE('',(#200),#50,.T.);
#220=CARTESIAN_POINT('',(82.8415244596216,47.655314,0.));
#230=DIRECTION('',(1.,0.,0.));
#240=DIRECTION('',(0.,-1.,0.));
#250=AXIS2_PLACEMENT_3D('',#220,#230,#240);
#260=CYLINDRICAL_SURFACE('',#250,2.15);
#270=CARTESIAN_POINT('',(82.8415244596216,49.805314,
-2.63299061816681E-16));
#280=DIRECTION('',(1.,0.,0.));
#290=VECTOR('',#280,1.);
#300=LINE('',#270,#290);
#310=CARTESIAN_POINT('',(87.1219092173509,49.805314,
-2.63299061816681E-16));
#320=VERTEX_POINT('',#310);
#330=EDGE_CURVE('',#140,#320,#300,.T.);
#340=ORIENTED_EDGE('',*,*,#330,.T.);
#350=ORIENTED_EDGE('',*,*,#170,.F.);
#360=CARTESIAN_POINT('',(82.8415244596216,45.505314,0.));
#370=DIRECTION('',(1.,0.,0.));
#380=VECTOR('',#370,1.);
#390=LINE('',#360,#380);
#400=CARTESIAN_POINT('',(87.1219092173509,45.505314,0.));
#410=VERTEX_POINT('',#400);
#420=EDGE_CURVE('',#120,#410,#390,.T.);
#430=ORIENTED_EDGE('',*,*,#420,.F.);
#440=CARTESIAN_POINT('',(87.1219092173509,47.655314,0.));
#450=DIRECTION('',(1.,0.,0.));
#460=DIRECTION('',(0.,-1.,0.));
#470=AXIS2_PLACEMENT_3D('',#440,#450,#460);
#480=CIRCLE('',#470,2.15);
#490=EDGE_CURVE('',#320,#410,#480,.T.);
#500=ORIENTED_EDGE('',*,*,#490,.T.);
#510=EDGE_LOOP('',(#500,#430,#350,#340));
#520=FACE_OUTER_BOUND('',#510,.T.);
#530=ADVANCED_FACE('',(#520),#260,.F.);
#540=CARTESIAN_POINT('',(67.978127,47.655314,0.));
#550=DIRECTION('',(1.,0.,0.));
#560=DIRECTION('',(0.,-1.,0.));
#570=AXIS2_PLACEMENT_3D('',#540,#550,#560);
#580=CYLINDRICAL_SURFACE('',#570,2.);
#590=CARTESIAN_POINT('',(67.978127,49.655314,-2.44929359829471E-16));
#600=DIRECTION('',(1.,0.,0.));
#610=VECTOR('',#600,1.);
#620=LINE('',#590,#610);
#630=CARTESIAN_POINT('',(64.728127,49.655314,-2.44929359829471E-16));
#640=VERTEX_POINT('',#630);
#650=CARTESIAN_POINT('',(76.328127,49.655314,-2.44929359829471E-16));
#660=VERTEX_POINT('',#650);
#670=EDGE_CURVE('',#640,#660,#620,.T.);
#680=ORIENTED_EDGE('',*,*,#670,.F.);
#690=CARTESIAN_POINT('',(76.328127,47.655314,0.));
#700=DIRECTION('',(1.,0.,0.));
#710=DIRECTION('',(0.,-1.,0.));
#720=AXIS2_PLACEMENT_3D('',#690,#700,#710);
#730=CIRCLE('',#720,2.);
#740=CARTESIAN_POINT('',(76.328127,45.655314,0.));
#750=VERTEX_POINT('',#740);
#760=EDGE_CURVE('',#660,#750,#730,.T.);
#770=ORIENTED_EDGE('',*,*,#760,.F.);
#780=CARTESIAN_POINT('',(67.978127,45.655314,0.));
#790=DIRECTION('',(1.,0.,0.));
#800=VECTOR('',#790,1.);
#810=LINE('',#780,#800);
#820=CARTESIAN_POINT('',(64.728127,45.655314,0.));
#830=VERTEX_POINT('',#820);
#840=EDGE_CURVE('',#830,#750,#810,.T.);
#850=ORIENTED_EDGE('',*,*,#840,.T.);
#860=CARTESIAN_POINT('',(64.728127,47.655314,0.));
#870=DIRECTION('',(1.,0.,0.));
#880=DIRECTION('',(0.,-1.,0.));
#890=AXIS2_PLACEMENT_3D('',#860,#870,#880);
#900=CIRCLE('',#890,2.);
#910=EDGE_CURVE('',#640,#830,#900,.T.);
#920=ORIENTED_EDGE('',*,*,#910,.T.);
#930=EDGE_LOOP('',(#920,#850,#770,#680));
#940=FACE_OUTER_BOUND('',#930,.T.);
#950=ADVANCED_FACE('',(#940),#580,.T.);
#960=CARTESIAN_POINT('',(87.728127,45.030314,0.));
#970=DIRECTION('',(1.,0.,0.));
#980=DIRECTION('',(0.,-1.,0.));
#990=AXIS2_PLACEMENT_3D('',#960,#970,#980);
#1000=PLANE('',#990);
#1010=CARTESIAN_POINT('',(87.728127,47.655314,0.));
#1020=DIRECTION('',(1.,0.,0.));
#1030=DIRECTION('',(0.,-1.,0.));
#1040=AXIS2_PLACEMENT_3D('',#1010,#1020,#1030);
#1050=CIRCLE('',#1040,2.5);
#1060=CARTESIAN_POINT('',(87.728127,45.155314,0.));
#1070=VERTEX_POINT('',#1060);
#1080=CARTESIAN_POINT('',(87.728127,50.155314,-3.06161699786838E-16));
#1090=VERTEX_POINT('',#1080);
#1100=EDGE_CURVE('',#1070,#1090,#1050,.T.);
#1110=ORIENTED_EDGE('',*,*,#1100,.F.);
#1120=EDGE_CURVE('',#1090,#1070,#1050,.T.);
#1130=ORIENTED_EDGE('',*,*,#1120,.F.);
#1140=EDGE_LOOP('',(#1130,#1110));
#1150=FACE_BOUND('',#1140,.T.);
#1160=CARTESIAN_POINT('',(87.728127,47.655314,0.));
#1170=DIRECTION('',(1.,0.,0.));
#1180=DIRECTION('',(0.,-1.,0.));
#1190=AXIS2_PLACEMENT_3D('',#1160,#1170,#1180);
#1200=CIRCLE('',#1190,3.);
#1210=CARTESIAN_POINT('',(87.728127,44.655314,0.));
#1220=VERTEX_POINT('',#1210);
#1230=CARTESIAN_POINT('',(87.728127,50.655314,-3.67394039744206E-16));
#1240=VERTEX_POINT('',#1230);
#1250=EDGE_CURVE('',#1220,#1240,#1200,.T.);
#1260=ORIENTED_EDGE('',*,*,#1250,.T.);
#1270=EDGE_CURVE('',#1240,#1220,#1200,.T.);
#1280=ORIENTED_EDGE('',*,*,#1270,.T.);
#1290=EDGE_LOOP('',(#1280,#1260));
#1300=FACE_OUTER_BOUND('',#1290,.T.);
#1310=ADVANCED_FACE('',(#1150,#1300),#1000,.T.);
#1320=CARTESIAN_POINT('',(86.728127,47.655314,0.));
#1330=DIRECTION('',(1.,0.,0.));
#1340=DIRECTION('',(0.,-1.,0.));
#1350=AXIS2_PLACEMENT_3D('',#1320,#1330,#1340);
#1360=CYLINDRICAL_SURFACE('',#1350,3.);
#1370=CARTESIAN_POINT('',(86.728127,50.655314,-3.67394039744206E-16));
#1380=DIRECTION('',(1.,0.,0.));
#1390=VECTOR('',#1380,1.);
#1400=LINE('',#1370,#1390);
#1410=CARTESIAN_POINT('',(85.843597,50.655314,-3.67394039744206E-16));
#1420=VERTEX_POINT('',#1410);
#1430=EDGE_CURVE('',#1420,#1240,#1400,.T.);
#1440=ORIENTED_EDGE('',*,*,#1430,.F.);
#1450=ORIENTED_EDGE('',*,*,#1270,.F.);
#1460=CARTESIAN_POINT('',(86.728127,44.655314,0.));
#1470=DIRECTION('',(1.,0.,0.));
#1480=VECTOR('',#1470,1.);
#1490=LINE('',#1460,#1480);
#1500=CARTESIAN_POINT('',(85.843597,44.655314,0.));
#1510=VERTEX_POINT('',#1500);
#1520=EDGE_CURVE('',#1510,#1220,#1490,.T.);
#1530=ORIENTED_EDGE('',*,*,#1520,.T.);
#1540=CARTESIAN_POINT('',(85.843597,47.655314,0.));
#1550=DIRECTION('',(1.,0.,0.));
#1560=DIRECTION('',(0.,-1.,0.));
#1570=AXIS2_PLACEMENT_3D('',#1540,#1550,#1560);
#1580=CIRCLE('',#1570,3.);
#1590=EDGE_CURVE('',#1420,#1510,#1580,.T.);
#1600=ORIENTED_EDGE('',*,*,#1590,.T.);
#1610=EDGE_LOOP('',(#1600,#1530,#1450,#1440));
#1620=FACE_OUTER_BOUND('',#1610,.T.);
#1630=ADVANCED_FACE('',(#1620),#1360,.T.);
#1640=CARTESIAN_POINT('',(85.843597,47.655314,0.));
#1650=DIRECTION('',(1.,0.,0.));
#1660=DIRECTION('',(0.,-1.,0.));
#1670=AXIS2_PLACEMENT_3D('',#1640,#1650,#1660);
#1680=CONICAL_SURFACE('',#1670,3.,1.0471975511966);
#1690=CARTESIAN_POINT('',(85.843597,50.655314,-3.67394039744206E-16));
#1700=DIRECTION('',(0.500000000000001,0.866025403784438,
-1.06057523872491E-16));
#1710=VECTOR('',#1700,3.46410161513776);
#1720=LINE('',#1690,#1710);
#1730=CARTESIAN_POINT('',(85.7281269461621,50.455314,
-3.42901103761258E-16));
#1740=VERTEX_POINT('',#1730);
#1750=EDGE_CURVE('',#1740,#1420,#1720,.T.);
#1760=ORIENTED_EDGE('',*,*,#1750,.F.);
#1770=ORIENTED_EDGE('',*,*,#1590,.F.);
#1780=CARTESIAN_POINT('',(85.843597,44.655314,0.));
#1790=DIRECTION('',(0.500000000000001,-0.866025403784438,0.));
#1800=VECTOR('',#1790,3.46410161513776);
#1810=LINE('',#1780,#1800);
#1820=CARTESIAN_POINT('',(85.7281269461621,44.855314,0.));
#1830=VERTEX_POINT('',#1820);
#1840=EDGE_CURVE('',#1830,#1510,#1810,.T.);
#1850=ORIENTED_EDGE('',*,*,#1840,.T.);
#1860=CARTESIAN_POINT('',(85.7281269461621,47.655314,0.));
#1870=DIRECTION('',(1.,0.,0.));
#1880=DIRECTION('',(0.,-1.,0.));
#1890=AXIS2_PLACEMENT_3D('',#1860,#1870,#1880);
#1900=CIRCLE('',#1890,2.79999999999999);
#1910=EDGE_CURVE('',#1740,#1830,#1900,.T.);
#1920=ORIENTED_EDGE('',*,*,#1910,.T.);
#1930=EDGE_LOOP('',(#1920,#1850,#1770,#1760));
#1940=FACE_OUTER_BOUND('',#1930,.T.);
#1950=ADVANCED_FACE('',(#1940),#1680,.T.);
#1960=CARTESIAN_POINT('',(82.770391973081,47.655314,0.));
#1970=DIRECTION('',(1.,0.,0.));
#1980=DIRECTION('',(0.,-1.,0.));
#1990=AXIS2_PLACEMENT_3D('',#1960,#1970,#1980);
#2000=CYLINDRICAL_SURFACE('',#1990,2.8);
#2010=CARTESIAN_POINT('',(82.770391973081,50.455314,
-3.42901103761259E-16));
#2020=DIRECTION('',(1.,0.,0.));
#2030=VECTOR('',#2020,1.);
#2040=LINE('',#2010,#2030);
#2050=CARTESIAN_POINT('',(79.728127,50.455314,-3.42901103761259E-16));
#2060=VERTEX_POINT('',#2050);
#2070=EDGE_CURVE('',#2060,#1740,#2040,.T.);
#2080=ORIENTED_EDGE('',*,*,#2070,.F.);
#2090=ORIENTED_EDGE('',*,*,#1910,.F.);
#2100=CARTESIAN_POINT('',(82.770391973081,44.855314,0.));
#2110=DIRECTION('',(1.,0.,0.));
#2120=VECTOR('',#2110,1.);
#2130=LINE('',#2100,#2120);
#2140=CARTESIAN_POINT('',(79.728127,44.855314,0.));
#2150=VERTEX_POINT('',#2140);
#2160=EDGE_CURVE('',#2150,#1830,#2130,.T.);
#2170=ORIENTED_EDGE('',*,*,#2160,.T.);
#2180=CARTESIAN_POINT('',(79.728127,47.655314,0.));
#2190=DIRECTION('',(1.,0.,0.));
#2200=DIRECTION('',(0.,-1.,0.));
#2210=AXIS2_PLACEMENT_3D('',#2180,#2190,#2200);
#2220=CIRCLE('',#2210,2.8);
#2230=EDGE_CURVE('',#2060,#2150,#2220,.T.);
#2240=ORIENTED_EDGE('',*,*,#2230,.T.);
#2250=EDGE_LOOP('',(#2240,#2170,#2090,#2080));
#2260=FACE_OUTER_BOUND('',#2250,.T.);
#2270=ADVANCED_FACE('',(#2260),#2000,.T.);
#2280=CARTESIAN_POINT('',(79.528127,47.655314,0.));
#2290=DIRECTION('',(-1.,0.,0.));
#2300=DIRECTION('',(0.,1.,0.));
#2310=AXIS2_PLACEMENT_3D('',#2280,#2290,#2300);
#2320=CONICAL_SURFACE('',#2310,3.,0.785398163397437);
#2330=CARTESIAN_POINT('',(79.528127,50.655314,0.));
#2340=DIRECTION('',(-0.707106781186556,0.707106781186539,0.));
#2350=VECTOR('',#2340,4.24264068711934);
#2360=LINE('',#2330,#2350);
#2370=CARTESIAN_POINT('',(79.528127,50.655314,0.));
#2380=VERTEX_POINT('',#2370);
#2390=EDGE_CURVE('',#2060,#2380,#2360,.T.);
#2400=ORIENTED_EDGE('',*,*,#2390,.T.);
#2410=ORIENTED_EDGE('',*,*,#2230,.F.);
#2420=CARTESIAN_POINT('',(79.528127,44.655314,-3.67394039744206E-16));
#2430=DIRECTION('',(-0.707106781186556,-0.707106781186539,
-8.65956056235483E-17));
#2440=VECTOR('',#2430,4.24264068711934);
#2450=LINE('',#2420,#2440);
#2460=CARTESIAN_POINT('',(79.528127,44.655314,-3.67394039744206E-16));
#2470=VERTEX_POINT('',#2460);
#2480=EDGE_CURVE('',#2150,#2470,#2450,.T.);
#2490=ORIENTED_EDGE('',*,*,#2480,.F.);
#2500=CARTESIAN_POINT('',(79.528127,47.655314,0.));
#2510=DIRECTION('',(1.,0.,0.));
#2520=DIRECTION('',(0.,-1.,0.));
#2530=AXIS2_PLACEMENT_3D('',#2500,#2510,#2520);
#2540=CIRCLE('',#2530,3.);
#2550=EDGE_CURVE('',#2380,#2470,#2540,.T.);
#2560=ORIENTED_EDGE('',*,*,#2550,.T.);
#2570=EDGE_LOOP('',(#2560,#2490,#2410,#2400));
#2580=FACE_OUTER_BOUND('',#2570,.T.);
#2590=ADVANCED_FACE('',(#2580),#2320,.T.);
#2600=CARTESIAN_POINT('',(78.528127,47.655314,0.));
#2610=DIRECTION('',(1.,0.,0.));
#2620=DIRECTION('',(0.,-1.,0.));
#2630=AXIS2_PLACEMENT_3D('',#2600,#2610,#2620);
#2640=CYLINDRICAL_SURFACE('',#2630,3.);
#2650=CARTESIAN_POINT('',(78.528127,50.655314,-3.67394039744206E-16));
#2660=DIRECTION('',(1.,0.,0.));
#2670=VECTOR('',#2660,1.);
#2680=LINE('',#2650,#2670);
#2690=CARTESIAN_POINT('',(77.328127,50.655314,-3.67394039744206E-16));
#2700=VERTEX_POINT('',#2690);
#2710=EDGE_CURVE('',#2700,#2380,#2680,.T.);
#2720=ORIENTED_EDGE('',*,*,#2710,.F.);
#2730=ORIENTED_EDGE('',*,*,#2550,.F.);
#2740=CARTESIAN_POINT('',(78.528127,44.655314,0.));
#2750=DIRECTION('',(1.,0.,0.));
#2760=VECTOR('',#2750,1.);
#2770=LINE('',#2740,#2760);
#2780=CARTESIAN_POINT('',(77.328127,44.655314,0.));
#2790=VERTEX_POINT('',#2780);
#2800=EDGE_CURVE('',#2790,#2470,#2770,.T.);
#2810=ORIENTED_EDGE('',*,*,#2800,.T.);
#2820=CARTESIAN_POINT('',(77.328127,47.655314,0.));
#2830=DIRECTION('',(1.,0.,0.));
#2840=DIRECTION('',(0.,-1.,0.));
#2850=AXIS2_PLACEMENT_3D('',#2820,#2830,#2840);
#2860=CIRCLE('',#2850,3.);
#2870=EDGE_CURVE('',#2700,#2790,#2860,.T.);
#2880=ORIENTED_EDGE('',*,*,#2870,.T.);
#2890=EDGE_LOOP('',(#2880,#2810,#2730,#2720));
#2900=FACE_OUTER_BOUND('',#2890,.T.);
#2910=ADVANCED_FACE('',(#2900),#2640,.T.);
#2920=CARTESIAN_POINT('',(77.328127,47.655314,0.));
#2930=DIRECTION('',(1.,0.,0.));
#2940=DIRECTION('',(0.,-1.,0.));
#2950=AXIS2_PLACEMENT_3D('',#2920,#2930,#2940);
#2960=CONICAL_SURFACE('',#2950,3.,0.785398163397451);
#2970=CARTESIAN_POINT('',(77.328127,50.655314,-3.67394039744206E-16));
#2980=DIRECTION('',(0.707106781186546,0.707106781186549,
-8.65956056235495E-17));
#2990=VECTOR('',#2980,4.24264068711928);
#3000=LINE('',#2970,#2990);
#3010=EDGE_CURVE('',#660,#2700,#3000,.T.);
#3020=ORIENTED_EDGE('',*,*,#3010,.F.);
#3030=ORIENTED_EDGE('',*,*,#2870,.F.);
#3040=CARTESIAN_POINT('',(77.328127,44.655314,0.));
#3050=DIRECTION('',(0.707106781186546,-0.707106781186549,0.));
#3060=VECTOR('',#3050,4.24264068711928);
#3070=LINE('',#3040,#3060);
#3080=EDGE_CURVE('',#750,#2790,#3070,.T.);
#3090=ORIENTED_EDGE('',*,*,#3080,.T.);
#3100=ORIENTED_EDGE('',*,*,#760,.T.);
#3110=EDGE_LOOP('',(#3100,#3090,#3030,#3020));
#3120=FACE_OUTER_BOUND('',#3110,.T.);
#3130=ADVANCED_FACE('',(#3120),#2960,.T.);
#3140=CARTESIAN_POINT('',(67.978127,49.655314,-2.44929359829471E-16));
#3150=DIRECTION('',(1.,0.,0.));
#3160=VECTOR('',#3150,1.);
#3170=LINE('',#3140,#3160);
#3180=CARTESIAN_POINT('',(60.728127,49.655314,-4.179045319466E-91));
#3190=VERTEX_POINT('',#3180);
#3200=EDGE_CURVE('',#3190,#640,#3170,.T.);
#3210=ORIENTED_EDGE('',*,*,#3200,.F.);
#3220=ORIENTED_EDGE('',*,*,#910,.F.);
#3230=CARTESIAN_POINT('',(67.978127,45.655314,0.));
#3240=DIRECTION('',(1.,0.,0.));
#3250=VECTOR('',#3240,1.);
#3260=LINE('',#3230,#3250);
#3270=CARTESIAN_POINT('',(60.728127,45.655314,-4.179045319466E-91));
#3280=VERTEX_POINT('',#3270);
#3290=EDGE_CURVE('',#3280,#830,#3260,.T.);
#3300=ORIENTED_EDGE('',*,*,#3290,.T.);
#3310=CARTESIAN_POINT('',(60.728127,47.655314,0.));
#3320=DIRECTION('',(1.,0.,0.));
#3330=DIRECTION('',(0.,-1.,0.));
#3340=AXIS2_PLACEMENT_3D('',#3310,#3320,#3330);
#3350=CIRCLE('',#3340,2.);
#3360=EDGE_CURVE('',#3190,#3280,#3350,.T.);
#3370=ORIENTED_EDGE('',*,*,#3360,.T.);
#3380=EDGE_LOOP('',(#3370,#3300,#3220,#3210));
#3390=FACE_OUTER_BOUND('',#3380,.T.);
#3400=ADVANCED_FACE('',(#3390),#580,.T.);
#3410=CARTESIAN_POINT('',(87.728127,47.655314,0.));
#3420=DIRECTION('',(1.,0.,0.));
#3430=DIRECTION('',(0.,-1.,0.));
#3440=AXIS2_PLACEMENT_3D('',#3410,#3420,#3430);
#3450=CONICAL_SURFACE('',#3440,2.5,0.523598775598298);
#3460=CARTESIAN_POINT('',(87.728127,50.155314,-3.06161699786838E-16));
#3470=DIRECTION('',(0.866025403784439,0.5,-6.12323399573676E-17));
#3480=VECTOR('',#3470,5.);
#3490=LINE('',#3460,#3480);
#3500=EDGE_CURVE('',#320,#1090,#3490,.T.);
#3510=ORIENTED_EDGE('',*,*,#3500,.T.);
#3520=ORIENTED_EDGE('',*,*,#490,.F.);
#3530=CARTESIAN_POINT('',(87.728127,45.155314,0.));
#3540=DIRECTION('',(0.866025403784439,-0.5,0.));
#3550=VECTOR('',#3540,5.);
#3560=LINE('',#3530,#3550);
#3570=EDGE_CURVE('',#410,#1070,#3560,.T.);
#3580=ORIENTED_EDGE('',*,*,#3570,.F.);
#3590=ORIENTED_EDGE('',*,*,#1120,.T.);
#3600=EDGE_LOOP('',(#3590,#3580,#3520,#3510));
#3610=FACE_OUTER_BOUND('',#3600,.T.);
#3620=ADVANCED_FACE('',(#3610),#3450,.F.);
#3630=CARTESIAN_POINT('',(60.728127,47.655314,-4.179045319466E-91));
#3640=DIRECTION('',(-1.,0.,2.089522659733E-91));
#3650=DIRECTION('',(1.13882925695106E-197,1.,5.45018859521043E-107));
#3660=AXIS2_PLACEMENT_3D('',#3630,#3640,#3650);
#3670=SPHERICAL_SURFACE('',#3660,2.);
#3680=CARTESIAN_POINT('',(60.728127,47.655314,-4.179045319466E-91));
#3690=DIRECTION('',(-2.089522659733E-91,0.,-1.));
#3700=DIRECTION('',(1.,0.,-2.089522659733E-91));
#3710=AXIS2_PLACEMENT_3D('',#3680,#3690,#3700);
#3720=CIRCLE('',#3710,2.);
#3730=CARTESIAN_POINT('',(58.728127,47.655314,0.));
#3740=VERTEX_POINT('',#3730);
#3750=EDGE_CURVE('',#3280,#3740,#3720,.T.);
#3760=ORIENTED_EDGE('',*,*,#3750,.F.);
#3770=EDGE_CURVE('',#3740,#3190,#3720,.T.);
#3780=ORIENTED_EDGE('',*,*,#3770,.F.);
#3790=ORIENTED_EDGE('',*,*,#3360,.F.);
#3800=EDGE_LOOP('',(#3790,#3780,#3760));
#3810=FACE_OUTER_BOUND('',#3800,.T.);
#3820=ADVANCED_FACE('',(#3810),#3670,.T.);
#3830=CARTESIAN_POINT('',(82.8415244596216,47.655314,0.));
#3840=DIRECTION('',(1.,0.,0.));
#3850=DIRECTION('',(0.,-1.,0.));
#3860=AXIS2_PLACEMENT_3D('',#3830,#3840,#3850);
#3870=CYLINDRICAL_SURFACE('',#3860,2.15);
#3880=ORIENTED_EDGE('',*,*,#150,.F.);
#3890=ORIENTED_EDGE('',*,*,#330,.F.);
#3900=EDGE_CURVE('',#410,#320,#480,.T.);
#3910=ORIENTED_EDGE('',*,*,#3900,.T.);
#3920=ORIENTED_EDGE('',*,*,#420,.T.);
#3930=EDGE_LOOP('',(#3920,#3910,#3890,#3880));
#3940=FACE_OUTER_BOUND('',#3930,.T.);
#3950=ADVANCED_FACE('',(#3940),#3870,.F.);
#3960=CARTESIAN_POINT('',(67.978127,47.655314,0.));
#3970=DIRECTION('',(1.,0.,0.));
#3980=DIRECTION('',(0.,-1.,0.));
#3990=AXIS2_PLACEMENT_3D('',#3960,#3970,#3980);
#4000=CYLINDRICAL_SURFACE('',#3990,2.);
#4010=EDGE_CURVE('',#830,#640,#900,.T.);
#4020=ORIENTED_EDGE('',*,*,#4010,.F.);
#4030=ORIENTED_EDGE('',*,*,#3200,.T.);
#4040=EDGE_CURVE('',#3280,#3190,#3350,.T.);
#4050=ORIENTED_EDGE('',*,*,#4040,.T.);
#4060=ORIENTED_EDGE('',*,*,#3290,.F.);
#4070=EDGE_LOOP('',(#4060,#4050,#4030,#4020));
#4080=FACE_OUTER_BOUND('',#4070,.T.);
#4090=ADVANCED_FACE('',(#4080),#4000,.T.);
#4100=CARTESIAN_POINT('',(78.528127,47.655314,0.));
#4110=DIRECTION('',(1.,0.,0.));
#4120=DIRECTION('',(0.,-1.,0.));
#4130=AXIS2_PLACEMENT_3D('',#4100,#4110,#4120);
#4140=CYLINDRICAL_SURFACE('',#4130,3.);
#4150=EDGE_CURVE('',#2470,#2380,#2540,.T.);
#4160=ORIENTED_EDGE('',*,*,#4150,.F.);
#4170=ORIENTED_EDGE('',*,*,#2710,.T.);
#4180=EDGE_CURVE('',#2790,#2700,#2860,.T.);
#4190=ORIENTED_EDGE('',*,*,#4180,.T.);
#4200=ORIENTED_EDGE('',*,*,#2800,.F.);
#4210=EDGE_LOOP('',(#4200,#4190,#4170,#4160));
#4220=FACE_OUTER_BOUND('',#4210,.T.);
#4230=ADVANCED_FACE('',(#4220),#4140,.T.);
#4240=CARTESIAN_POINT('',(85.843597,47.655314,0.));
#4250=DIRECTION('',(1.,0.,0.));
#4260=DIRECTION('',(0.,-1.,0.));
#4270=AXIS2_PLACEMENT_3D('',#4240,#4250,#4260);
#4280=CONICAL_SURFACE('',#4270,3.,1.0471975511966);
#4290=EDGE_CURVE('',#1510,#1420,#1580,.T.);
#4300=ORIENTED_EDGE('',*,*,#4290,.F.);
#4310=ORIENTED_EDGE('',*,*,#1750,.T.);
#4320=EDGE_CURVE('',#1830,#1740,#1900,.T.);
#4330=ORIENTED_EDGE('',*,*,#4320,.T.);
#4340=ORIENTED_EDGE('',*,*,#1840,.F.);
#4350=EDGE_LOOP('',(#4340,#4330,#4310,#4300));
#4360=FACE_OUTER_BOUND('',#4350,.T.);
#4370=ADVANCED_FACE('',(#4360),#4280,.T.);
#4380=CARTESIAN_POINT('',(87.728127,47.655314,0.));
#4390=DIRECTION('',(1.,0.,0.));
#4400=DIRECTION('',(0.,-1.,0.));
#4410=AXIS2_PLACEMENT_3D('',#4380,#4390,#4400);
#4420=CONICAL_SURFACE('',#4410,2.5,0.523598775598298);
#4430=ORIENTED_EDGE('',*,*,#3900,.F.);
#4440=ORIENTED_EDGE('',*,*,#3500,.F.);
#4450=ORIENTED_EDGE('',*,*,#1100,.T.);
#4460=ORIENTED_EDGE('',*,*,#3570,.T.);
#4470=EDGE_LOOP('',(#4460,#4450,#4440,#4430));
#4480=FACE_OUTER_BOUND('',#4470,.T.);
#4490=ADVANCED_FACE('',(#4480),#4420,.F.);
#4500=CARTESIAN_POINT('',(77.328127,47.655314,0.));
#4510=DIRECTION('',(1.,0.,0.));
#4520=DIRECTION('',(0.,-1.,0.));
#4530=AXIS2_PLACEMENT_3D('',#4500,#4510,#4520);
#4540=CONICAL_SURFACE('',#4530,3.,0.785398163397451);
#4550=ORIENTED_EDGE('',*,*,#4180,.F.);
#4560=ORIENTED_EDGE('',*,*,#3010,.T.);
#4570=EDGE_CURVE('',#750,#660,#730,.T.);
#4580=ORIENTED_EDGE('',*,*,#4570,.T.);
#4590=ORIENTED_EDGE('',*,*,#3080,.F.);
#4600=EDGE_LOOP('',(#4590,#4580,#4560,#4550));
#4610=FACE_OUTER_BOUND('',#4600,.T.);
#4620=ADVANCED_FACE('',(#4610),#4540,.T.);
#4630=CARTESIAN_POINT('',(82.770391973081,47.655314,0.));
#4640=DIRECTION('',(1.,0.,0.));
#4650=DIRECTION('',(0.,-1.,0.));
#4660=AXIS2_PLACEMENT_3D('',#4630,#4640,#4650);
#4670=CYLINDRICAL_SURFACE('',#4660,2.8);
#4680=ORIENTED_EDGE('',*,*,#4320,.F.);
#4690=ORIENTED_EDGE('',*,*,#2070,.T.);
#4700=EDGE_CURVE('',#2150,#2060,#2220,.T.);
#4710=ORIENTED_EDGE('',*,*,#4700,.T.);
#4720=ORIENTED_EDGE('',*,*,#2160,.F.);
#4730=EDGE_LOOP('',(#4720,#4710,#4690,#4680));
#4740=FACE_OUTER_BOUND('',#4730,.T.);
#4750=ADVANCED_FACE('',(#4740),#4670,.T.);
#4760=ORIENTED_EDGE('',*,*,#4570,.F.);
#4770=ORIENTED_EDGE('',*,*,#670,.T.);
#4780=ORIENTED_EDGE('',*,*,#4010,.T.);
#4790=ORIENTED_EDGE('',*,*,#840,.F.);
#4800=EDGE_LOOP('',(#4790,#4780,#4770,#4760));
#4810=FACE_OUTER_BOUND('',#4800,.T.);
#4820=ADVANCED_FACE('',(#4810),#4000,.T.);
#4830=CARTESIAN_POINT('',(79.528127,47.655314,0.));
#4840=DIRECTION('',(-1.,0.,0.));
#4850=DIRECTION('',(0.,1.,0.));
#4860=AXIS2_PLACEMENT_3D('',#4830,#4840,#4850);
#4870=CONICAL_SURFACE('',#4860,3.,0.785398163397437);
#4880=ORIENTED_EDGE('',*,*,#4150,.T.);
#4890=ORIENTED_EDGE('',*,*,#2480,.T.);
#4900=ORIENTED_EDGE('',*,*,#4700,.F.);
#4910=ORIENTED_EDGE('',*,*,#2390,.F.);
#4920=EDGE_LOOP('',(#4910,#4900,#4890,#4880));
#4930=FACE_OUTER_BOUND('',#4920,.T.);
#4940=ADVANCED_FACE('',(#4930),#4870,.T.);
#4950=CARTESIAN_POINT('',(86.728127,47.655314,0.));
#4960=DIRECTION('',(1.,0.,0.));
#4970=DIRECTION('',(0.,-1.,0.));
#4980=AXIS2_PLACEMENT_3D('',#4950,#4960,#4970);
#4990=CYLINDRICAL_SURFACE('',#4980,3.);
#5000=ORIENTED_EDGE('',*,*,#1250,.F.);
#5010=ORIENTED_EDGE('',*,*,#1430,.T.);
#5020=ORIENTED_EDGE('',*,*,#4290,.T.);
#5030=ORIENTED_EDGE('',*,*,#1520,.F.);
#5040=EDGE_LOOP('',(#5030,#5020,#5010,#5000));
#5050=FACE_OUTER_BOUND('',#5040,.T.);
#5060=ADVANCED_FACE('',(#5050),#4990,.T.);
#5070=CARTESIAN_POINT('',(60.728127,47.655314,-4.179045319466E-91));
#5080=DIRECTION('',(-1.,0.,2.089522659733E-91));
#5090=DIRECTION('',(1.13882925695106E-197,1.,5.45018859521043E-107));
#5100=AXIS2_PLACEMENT_3D('',#5070,#5080,#5090);
#5110=SPHERICAL_SURFACE('',#5100,2.);
#5120=ORIENTED_EDGE('',*,*,#4040,.F.);
#5130=ORIENTED_EDGE('',*,*,#3770,.T.);
#5140=ORIENTED_EDGE('',*,*,#3750,.T.);
#5150=EDGE_LOOP('',(#5140,#5130,#5120));
#5160=FACE_OUTER_BOUND('',#5150,.T.);
#5170=ADVANCED_FACE('',(#5160),#5110,.T.);
#5180=CLOSED_SHELL('',(#210,#530,#950,#1310,#1630,#1950,#2270,#2590,
#2910,#3130,#3400,#3620,#3820,#3950,#4090,#4230,#4370,#4490,#4620,#4750,
#4820,#4940,#5060,#5170));
#5190=MANIFOLD_SOLID_BREP('',#5180);
#5200=CARTESIAN_POINT('',(0.,0.,0.));
#5210=DIRECTION('',(0.,0.,1.));
#5220=DIRECTION('',(1.,0.,0.));
#5230=AXIS2_PLACEMENT_3D('',#5200,#5210,#5220);
#5240=APPLICATION_CONTEXT(' ');
#5250=APPLICATION_PROTOCOL_DEFINITION(' ','automotive_design',1998,#5240
);
#5260=PRODUCT_CONTEXT('',#5240,'mechanical');
#5270=PRODUCT_DEFINITION_CONTEXT('part definition',#5240,'design');
#5280=PRODUCT('RXM2D_10','RXM2D_10','',(#5260));
#5290=PRODUCT_RELATED_PRODUCT_CATEGORY('part',' ',(#5280));
#5300=PRODUCT_DEFINITION_FORMATION_WITH_SPECIFIED_SOURCE('','',#5280,
.BOUGHT.);
#5310=PRODUCT_DEFINITION('',' ',#5300,#5270);
#5320=PRODUCT_DEFINITION_SHAPE('','',#5310);
#5330=DIMENSIONAL_EXPONENTS(1.,0.,0.,0.,0.,0.,0.);
#5340=DIMENSIONAL_EXPONENTS(0.,0.,0.,0.,0.,0.,0.);
#5350=DIMENSIONAL_EXPONENTS(0.,0.,0.,0.,0.,0.,0.);
#5360=(LENGTH_UNIT() NAMED_UNIT(*) SI_UNIT(.MILLI.,.METRE.));
#5370=(NAMED_UNIT(*) PLANE_ANGLE_UNIT() SI_UNIT($,.RADIAN.));
#5380=(NAMED_UNIT(*) SI_UNIT($,.STERADIAN.) SOLID_ANGLE_UNIT());
#5390=(GEOMETRIC_REPRESENTATION_CONTEXT(3) 
GLOBAL_UNCERTAINTY_ASSIGNED_CONTEXT((#5400)) 
GLOBAL_UNIT_ASSIGNED_CONTEXT((#5360,#5370,#5380)) REPRESENTATION_CONTEXT
('',''));
#5400=UNCERTAINTY_MEASURE_WITH_UNIT(LENGTH_MEASURE(1.E-6),#5360,
'distance_accuracy_value','maximum gap value');
#5410=ADVANCED_BREP_SHAPE_REPRESENTATION('',(#5230,#5190),#5390);
#5420=SHAPE_DEFINITION_REPRESENTATION(#5320,#5410);
#5430=COLOUR_RGB('',1.,0.784313797950745,0.);
#5440=FILL_AREA_STYLE_COLOUR('',#5430);
#5450=FILL_AREA_STYLE('',(#5440));
#5460=SURFACE_STYLE_FILL_AREA(#5450);
#5470=SURFACE_SIDE_STYLE('',(#5460));
#5480=SURFACE_STYLE_USAGE(.BOTH.,#5470);
#5490=PRESENTATION_STYLE_ASSIGNMENT((#5480));
#5500=STYLED_ITEM('',(#5490),#5190);
#5510=DRAUGHTING_MODEL('',(#5500),#5390);
#5520=CARTESIAN_POINT('',(129.002137,77.3045149999999,48.8281270000002))
;
#5530=DIRECTION('',(-6.68887130434693E-198,1.,2.72509429760522E-107));
#5540=DIRECTION('',(2.089522659733E-91,2.72509429760522E-107,-1.));
#5550=AXIS2_PLACEMENT_3D('',#5520,#5530,#5540);
#5560=ITEM_DEFINED_TRANSFORMATION('RXM2D_10','',#5230,#5550);
#5570=APPLICATION_CONTEXT(' ');
#5580=APPLICATION_PROTOCOL_DEFINITION(' ','automotive_design',1998,#5570
);
#5590=PRODUCT_CONTEXT('',#5570,'mechanical');
#5600=PRODUCT_DEFINITION_CONTEXT('part definition',#5570,'design');
#5610=PRODUCT('RXM2D_10','RXM2D_10','',(#5590));
#5620=PRODUCT_RELATED_PRODUCT_CATEGORY('part',' ',(#5610));
#5630=PRODUCT_DEFINITION_FORMATION_WITH_SPECIFIED_SOURCE('','',#5610,
.BOUGHT.);
#5640=PRODUCT_DEFINITION('',' ',#5630,#5600);
#5650=PRODUCT_DEFINITION_SHAPE('','',#5640);
#5660=DIMENSIONAL_EXPONENTS(1.,0.,0.,0.,0.,0.,0.);
#5670=DIMENSIONAL_EXPONENTS(0.,0.,0.,0.,0.,0.,0.);
#5680=DIMENSIONAL_EXPONENTS(0.,0.,0.,0.,0.,0.,0.);
#5690=(LENGTH_UNIT() NAMED_UNIT(*) SI_UNIT(.MILLI.,.METRE.));
#5700=(NAMED_UNIT(*) PLANE_ANGLE_UNIT() SI_UNIT($,.RADIAN.));
#5710=(NAMED_UNIT(*) SI_UNIT($,.STERADIAN.) SOLID_ANGLE_UNIT());
#5720=(GEOMETRIC_REPRESENTATION_CONTEXT(3) 
GLOBAL_UNCERTAINTY_ASSIGNED_CONTEXT((#5730)) 
GLOBAL_UNIT_ASSIGNED_CONTEXT((#5690,#5700,#5710)) REPRESENTATION_CONTEXT
('',''));
#5730=UNCERTAINTY_MEASURE_WITH_UNIT(LENGTH_MEASURE(1.E-6),#5690,
'distance_accuracy_value','maximum gap value');
#5740=SHAPE_REPRESENTATION('',(#5230,#5550),#5720);
#5750=SHAPE_DEFINITION_REPRESENTATION(#5650,#5740);
#5760=(REPRESENTATION_RELATIONSHIP('','',#5410,#5740) 
REPRESENTATION_RELATIONSHIP_WITH_TRANSFORMATION(#5560) 
SHAPE_REPRESENTATION_RELATIONSHIP());
#5770=NEXT_ASSEMBLY_USAGE_OCCURRENCE('1','','RXM2D_10',#5640,#5310,'');
#5780=PRODUCT_DEFINITION_SHAPE('','',#5770);
#5790=CONTEXT_DEPENDENT_SHAPE_REPRESENTATION(#5760,#5780);
ENDSEC;
END-ISO-10303-21;
